Song name
# A B C D E F G H I J K L M N O P Q R S T U V W X Y Z

Misc Computer Games - Final Fantasy X - Suteki Da Ne tab

Help us improve GuitareTab! Take a short survey!
This is my first tab.. hope its alright, enjoy!

Suteki da ne

E ------------------------------------|
B --0-1-0--1-3-5-3-1-0--1-0-----------|
G -2------------------------2-0--7-9--|
D ------------------------------------|
A ------------------------------------|
E ------------------------------------|

E ------------------------------------|
B --0-1-0--1-3-5-6-5-3--5-3-1-0-------|
G -2-----------------------------7-9--|
D ------------------------------------|
A ------------------------------------|
E ------------------------------------|
Related for Final Fantasy X - Suteki Da Ne tab