Song name
# A B C D E F G H I J K L M N O P Q R S T U V W X Y Z

Misc Computer Games - Doom Theme tab

-----------------------------------------------------------------
Doom95 (intro) - ID Software
-----------------------------------------------------------------
Tabbed by: KoolKat

Email: koolkat_x@yahoo.com

Misc:
 I was looking for a tab of this song, but none on Ultimate
Guitar sounded good. I looked at the MIDI file and painstakingly
converted the notes, so this is the real deal. Hope you like it.
Hi to the guys at www.doomworld.com and www.newdoom.com !

| / slide up
| \ slide down
| h hammer-on
| p pull-off
| ~ vibrato
| + harmonic
| x Mute note

Tuning:

e|---------------|-----------------| x4
B|---------------|-----------------|
G|---------------|-----------------|
D|---4-3---5--4--|---4-3---2-0-----|
A|-2-----2-------|-2-----2-----4-0-|
E|---------------|-----------------|

e|---------------|-----------------| x2
B|---------------|-----------------|
G|---------------|-----------------|
D|---0-----1--0--|---0-------------|
A|-----4---------|-----4---3-1-0---|
E|-3-----3-------|-3-----3-------1-|

e|---------------|-----------------| x2
B|---------------|-----------------|
G|---------------|-----------------|
D|---4-3---5--4--|---4-3---2-0-----|
A|-2-----2-------|-2-----2-----4-0-|
E|---------------|-----------------|

e|---------------|---------------| x1
B|---------------|---------------|
G|---------------|---------------|
D|---0-----1--0--|---------------|
A|-----4---------|---2-1---3--2--|
E|-3-----3-------|-0-----0-------|
Tap to rate this tab
# A B C D E F G H I J K L M N O P Q R S T U V W X Y Z