Song name
# A B C D E F G H I J K L M N O P Q R S T U V W X Y Z

Misc Computer Games - Morrowind Theme tab

-------------------------------------------------------------------------------
			    The Elder Scrolls III - Morrowind Theme
-------------------------------------------------------------------------------
Tabbed by: Diogo Mafra
Email/MSN: digreyfox@hotmail.com
Tuning: Standard (EADGBe)


e|---------------------------------------------------------------------------|
B|------------------------------------------------------------------------0--|
G|-----------------------0-------------------------------------------0-2-----|
D|---------------0-2---2---0---2h0-------------------------0-2---2-----------|
A|----0-2-3----3--------------------3-2-0-----0-2-3----3---------------------|
E|---------------------------------------------------------------------------|

e|---------------------------------------------------------------------------|
B|-------0--------0-1--0-----------------------------------------------------|
G|--2-0----2----2---------2-0------------------------------------------------|
D|-----------------------------3--2--0---------2-0---------------------------|
A|---------------------------------------0--3---------3--2--0----------------|
E|---------------------------------------------------------------------------|

Any comments, suggestions, gear or hate should be sent to digreyfox@hotmail.com by mail or msn.
Tap to rate this tab
 
# A B C D E F G H I J K L M N O P Q R S T U V W X Y Z