Song name
# A B C D E F G H I J K L M N O P Q R S T U V W X Y Z

Misc Computer Games - Wolfenstein 3d Theme tab

The music can be heard on the first level of the first episode.
It's a simple tune.

e|-------------------------------|
b|----------3---3----------------|
G|----0-0-0---0---0--------------|
D|-------------------------------|
A|--3---------------3------------|
E|-------------------------------|

e|-------------------------------|
b|-------------------------------|
G|----------2---2----------------|
D|----0-0-0---0---0--------------|
A|-------------------------------|
E|--3---------------3------------|
Tap to rate this tab
 
# A B C D E F G H I J K L M N O P Q R S T U V W X Y Z