Song name
# A B C D E F G H I J K L M N O P Q R S T U V W X Y Z

Misc Computer Games - Final Fantasy X - Cave Theme tab

Band: Final Fantasy X
Song Name: Cave
Tabbed by: HellBent
Email: djhellbent@gmail.com
Tunning: EADGBe

Rhythem=========================================
------------------------------------------------|
------------------------------------------------|
3-------3---3-------3---3-------3---3-------3---|
--3---3---3---3---3---3---3---3---3---3---3---3-|
----4-----------4-----------6-----------6-------|
------------------------------------------------|


LEAD========================================================
9-11-13-6---6-8-9-1-3-4-3-----9-11-13-6---6-8-9-1-3-4-3--11-|
------------------------------------------------------------|
------------------------------------------------------------|
------------------------------------------------------------|
------------------------------------------------------------|
------------------------------------------------------------|
Tap to rate this tab
 
# A B C D E F G H I J K L M N O P Q R S T U V W X Y Z