Song name
# A B C D E F G H I J K L M N O P Q R S T U V W X Y Z

Misc Computer Games - Legend Of Zelda 2 - Clock Town tab

e|---------------------------------------------------------------|
B|---------------------------------------------------------------|
G|-----7p6-------------------------------------------------------|
D|----------9p7h9-s-5--7-4h5p4---4h5-----------------------------|
A|--5--------------------------7-----7---------------------------|
E|---------------------------------------------------------------|

e|---------------------------------------------------------------|
B|---------------------------------------------------------------|
G|-----7p6-------------------------------------------------------|
D|----------9p7h9-s-5--7p5-4h5p4---------------------------------|
A|--5-----------------------------7p5----------------------------|
E|---------------------------------------------------------------|


e|---------------------------------------------------------------|
B|------------------8p7---7--------------------------------------|
G|--7--7-7p6h7-9--------9---9p7h9--------------------------------|
D|---------------7----------------7------------------------------|
A|---------------------------------------------------------------|
E|---------------------------------------------------------------|

e|---------------------------------------------------------------|
B|------------------8p7---7--------------------------------------|
G|--7--7-7p6h7-9--------9---9p7-7--------------------------------|
D|---------------7-----------------------------------------------|
A|---------------------------------------------------------------|
E|---------------------------------------------------------------|

e|---------------------------------------------------------------|
B|---------------------------------------------------------------|
G|---------------------------------7-6-----6--5--4---------------|
D|--9--7----------9--7--------9-7--------------------------------|
A|--------10--9--------10-9-7------------------------------------|
E|---------------------------------------------------------------|
Tap to rate this tab
# A B C D E F G H I J K L M N O P Q R S T U V W X Y Z