Song name
# A B C D E F G H I J K L M N O P Q R S T U V W X Y Z

Misc Computer Games - Final Fantasy X - Game Over tab

-------------------------------------------------------------------------------
			Game Over- Final Fantasy X
-------------------------------------------------------------------------------
Tabbed by: metalgeardave
Email: metalgeardave@hotmail.com

e|---9-7-------9-7----------------------4-5-4-------------------------|
B|-------12-7------12-7--------5-4-5-7--------7--9-7------------------|
G|-----------------------8-6-8-----------------------9-8-----6-6------|
D|-------------------------------------------------------9-9----------|
A|--------------------------------------------------------------------|
E|--------------------------------------------------------------------|
Tap to rate this tab
# A B C D E F G H I J K L M N O P Q R S T U V W X Y Z