Song name
# A B C D E F G H I J K L M N O P Q R S T U V W X Y Z

Misc Computer Games - Croc Theme tab

-------------------------------------------------------------------------------
			     Opening Theme- Croc
-------------------------------------------------------------------------------
Tabbed by: metalgeardave
Email: metalgeardave@hotmail.com



e|------0--------0--------0--------0--------0----------------------------|
B|-2-0----0-2-0----0-2-0----0-2-0----0-2-0----0-2-0----------------------|
G|-----------------------------------------------------------------------|
D|-----------------------------------------------------------------------|
A|-----------------------------------------------------------------------|
E|-----------------------------------------------------------------------|

e|-----4-4-4-3-4-----0--------0--------------4-7-4-3-2-------------------|
B|-2-5-----------------0-2-0----0-2-0---2-5------------------------------|
G|-----------------------------------------------------------------------|
D|-----------------------------------------------------------------------|
A|-----------------------------------------------------------------------|
E|-----------------------------------------------------------------------|

e|---9-5-9-12-11-9-7-9-7-9-------------------7-9-11-9-7------------------|
B|-------------------------9-9-7----7----7-7-----------------------------|
G|-6-----------------------------10---10---------------------------------|
D|-----------------------------------------------------------------------|
A|-----------------------------------------------------------------------|
E|-----------------------------------------------------------------------|
Tap to rate this tab
# A B C D E F G H I J K L M N O P Q R S T U V W X Y Z