Song name
# A B C D E F G H I J K L M N O P Q R S T U V W X Y Z

Misc Computer Games - Age Of Empires - In Game tab

-------------------------------------------------------------------------------
		 Age Of Empires; In Game Music - Age Of Empires
-------------------------------------------------------------------------------
Tabbed by: metalgeardave
Email: metalgeardave@hotmail.com

Chords: Dm, C    Note: Strum the chords all the way through the song.

Opening:

e|----------------------------------------------------------------|
B|-----------6--10-8-6--------------------------------------------|
G|--10-9-7-9-----------9-7----------------------------------------|
D|-------------------------10-------------------------------------|
A|----------------------------------------------------------------|
E|----------------------------------------------------------------|


e|----------------------------------------------------------------|
B|----------------------------------------------------------------|
G|-9-7----------7-9-10-9-7----7-----------------------------------|
D|-----10-9-10-------------10-------------------------------------|
A|----------------------------------------------------------------|
E|----------------------------------------------------------------|

Repeat x4

e|----------------------------------------------------------------|
B|-9-7-----7------------------------------------------------------|
G|-----9-8--------------------------------------------------------|
D|-----------9-6--------------------------------------------------|
A|----------------------------------------------------------------|
E|----------------------------------------------------------------|

Repeat 4x

e|--------------------------------------------7-------------------|
B|--9-9-7-9-----9-9-7---------9-9-7-9-----9-9---------------------|
G|----------------------------------------------------------------|
D|----------------------------------------------------------------|
A|----------------------------------------------------------------|
E|----------------------------------------------------------------|
Tap to rate this tab
# A B C D E F G H I J K L M N O P Q R S T U V W X Y Z