Song name
# A B C D E F G H I J K L M N O P Q R S T U V W X Y Z

Misc Computer Games - Age Of Empires 2 Theme tab

----------------------------------------------------------------------------
			     Age of Empires II Intro
----------------------------------------------------------------------------
Tabbed by: Zach AKA the biggest loser 

Tuning: Standard

e|-----------------------------------------------|
B|-----------------------------------------------|
G|---6---7--10\-9\-7/-9------6---7--10\-9\-7/-12-|
D|---7---7--10\-9\-7/-9------7---7--10\-9\-7/-12-|
A|---7---5--8\--7\-5/-7------7---5--8\--7\-5/-10-|
E|---5-----------------------5-------------------|

e|---------------------------------------|
B|---------------------------------------|
G|---6---7--10\-9\-7---7--10--7---6---7--|
D|---7---7--10\-9\-7---7--10--7---7---7--|
A|---7---5--8\--7\-5---5--8---5---7---5--|
E|---5----------------------------5------|


Yea. um. That's it.
Tap to rate this tab
# A B C D E F G H I J K L M N O P Q R S T U V W X Y Z