Song name
# A B C D E F G H I J K L M N O P Q R S T U V W X Y Z

Misc Computer Games - Cosmo Canyon Theme tab

my very first tab so it might not sound good.
and its kinda high pitched

|0-----------------8----8-10-12-12-12-10-8-10-12-10-8-10-12-|
|--8-*10-10-10-8-10---10------------------------------------|
|-----------------------------------------------------------|
|-----------------------------------------------------------|
|-----------------------------------------------------------|
|-----------------------------------------------------------|

|8------------8---------------------------------------------|
|--10-10-8-10---10-8-10*------------------------------------|
|-----------------------------------------------------------|
|-----------------------------------------------------------|
|-----------------------------------------------------------|
|-----------------------------------------------------------|

thats all
have fun with it
Tap to rate this tab
 
# A B C D E F G H I J K L M N O P Q R S T U V W X Y Z