Song name
# A B C D E F G H I J K L M N O P Q R S T U V W X Y Z

Misc Computer Games - Max Payne Theme tab

I used the piano notes from the Remedy forum.

e|----1-3-8-3-6-3-----------------------1-3-8-3-6-3------------------|
B|--4-------------4---------3---3-4-0-4-------------4---------3---3-4|
G|5-----------------4---1-0---0-----------------------4---1-0---0----|
D|-------------------------------------------------------------------|
A|-------------------------------------------------------------------|
E|-------------------------------------------------------------------|

e|------------------------------------------------------------------------|
B|--------3-0---4-3---------3-0---3-4---------3-0---4-3---------3-0---4-3-|
G|----0-1-----0---------0-1-----0---------0-1-----0---------0-1-----0-----|
D|3-3---------------3-3---------------3-3---------------3-3---------------|
A|------------------------------------------------------------------------|
E|------------------------------------------------------------------------|

e|-----------------|
B|--------3-1-0---0|
G|----0-1-------2--|
D|3-3--------------|
A|-----------------|
E|-----------------|

Now everything an octave higher, ending on a C.

e|------------------------------------------------------|
B|------------15-12----16-15-------------15-12----15-16-|
G|------12-13-------12-------------12-13-------12-------|
D|15-15----------------------15-15----------------------|
A|------------------------------------------------------|
E|------------------------------------------------------|

e|------------------------------------------------------|
B|------------15-12----16-15-------------15-12----16-15-|
G|------12-13-------12-------------12-13-------12-------|
D|15-15----------------------15-15----------------------|
A|------------------------------------------------------|
E|------------------------------------------------------|

e|--------------------------|
B|------------15-13-12----13|
G|------12-13----------14---|
D|15-15---------------------|
A|--------------------------|
E|--------------------------|
Tap to rate this tab
# A B C D E F G H I J K L M N O P Q R S T U V W X Y Z