Song name
# A B C D E F G H I J K L M N O P Q R S T U V W X Y Z

Misc Computer Games - Legend Of Zelda - Teleport tab

Listen to the real version to get the rythm of it.
Here you go all the teleporting songs in OOT (Ocorina of Time)


Prelude Of Light

|------------|
|--3---3---3-|
|---2---2-4--|
|------------|
|------------|
|------------|

Minuet OF Forest

|------------|
|--3---------|
|---4-2-4-2--|
|-0----------|
|------------|
|------------|

Beloro of Fire

|-----------------|
|-----------------|
|-----------2--2--|
|--3-0-3-0---3--3-|
|-----------------|
|-----------------|

Serenade Of Water

|------------|
|------------|
|-----2-2-4--|
|-0-3--------|
|------------|
|------------|

Nocturne Of Shadow

|-------------------|
|-------------------|
|-4--2--2---4-2-----|
|---------0----3--3-|
|-------------------|
|-------------------| x2

|-----------|
|-----------|
|-4--2--2---|
|---------0-|
|-----------|
|-----------| x2

|----------------|
|----------------|
|-4--2--2---4-2--|
|---------0----3-|
|----------------|
|----------------|

Requiem of Spirit

|------------|
|------------|
|-------2----|
|-0-3-0--3-0-|
|------------|
|------------|

There You GO!!! easy idn it
Tap to rate this tab
# A B C D E F G H I J K L M N O P Q R S T U V W X Y Z