Song name
# A B C D E F G H I J K L M N O P Q R S T U V W X Y Z

Misc Computer Games - Sonic The Hedgehog - Star Light Zone tab

Help us improve GuitareTab! Take a short survey!
                                Star Light Zone
                              Sonic The Hedgehog
Chorus:
|------------------------5-6-----------------------------------3-4-3-------------|
|-------8--5------5h6h8--------5-6-----6p5-6------5--6---3h5h6-------6-5---6p5-3-|
|----------------------------------------------7---------------------------------|
|-5--7---------------------------------------------------------------------------|
|--------------------------------------------------------------------------------|
|--------------------------------------------------------------------------------|
Repeat

Part 2:
|------8-8-----8-12-8---12--8-----8------------8-8-----8-12-8---|
|-8-10------10-----------------10---10----8-10------10----------|
|---------------------------------------------------------------|
|---------------------------------------------------------------|
|---------------------------------------------------------------|
|---------------------------------------------------------------|


|-12-13-12-12-13-15--8---------8-8-----8-12-8---12--8-----8------------8-8-----8-12-8---|
|-------------------------8-10------10-----------------10---10----8-10------10----------|
|---------------------------------------------------------------------------------------|
|---------------------------------------------------------------------------------------|
|---------------------------------------------------------------------------------------|
|---------------------------------------------------------------------------------------|

|-12h13h15--18b20--|
|------------------|
|------------------|
|------------------|
|------------------|
|------------------|
Related for Sonic The Hedgehog - Star Light Zone tab