Guitaretab - guitar tabs
Song name
# A B C D E F G H I J K L M N O P Q R S T U V W X Y Z

Misc Computer Games - Star Ocean 2 - Rena tab

-----------------------------------------------------------------------------
                        Star Ocean: The Second Story
                               Rena's Theme
                            Tabbed by: AUguitar
-----------------------------------------------------------------------------
This is the main part of Rena's Theme from the great Playstation RPG, Star Ocean:
The Second Story. I highly recommend playing this game if you haven't because it's
tons of fun and has a beautiful soundtrack.
-----------------------------------------------------------------------------

Tuning: Standard
BPM=75-80

~=vibrato
(7)=optional notes I added :)

Each vibrato last about 2 beats, but it's best to get the timing from the game.

e|---------------------------------------------------------(7)-(7)-|
B|---------10------------------------------10----------------------|
G|--7--9~~-----9~~-7--9~~-----------7--9~~-----9~~-7--9~~----------|
D|------------------------9-9--------------------------------------|
A|-----------------------------------------------------------------|
E|-----------------------------------------------------------------|
[ Tab from: http://www.guitaretab.com/m/misc-computer-games/61279.html ]
Related for Star Ocean 2 - Rena tab
×
Star Ocean 2 - Rena