Song name
# A B C D E F G H I J K L M N O P Q R S T U V W X Y Z

Misc Computer Games - Socom 2 Theme tab

SOCOM II: MAIN THEME, TABBED BY: ALIN


E|----------1---1-0-------0-1-0-1-0---6-8-6-5-1-3s5s3-3-5-6s5s6-10---------------1-|
B|------------3-----3-3-3-----------3------------------------------3-5-6s5-3-------|
G|2-4-5-4-2------------------------------------------------------------------2-3---|
D|---------------------------------------------------------------------------------|
A|---------------------------------------------------------------------------------|
E|---------------------------------------------------------------------------------|

                         (Drums and Violins enter again)
E|0-5-7-8-10-8-10-15-12-10-15-10-12-13-20-18-13-15s17s15-19-18s17-13-15-13-12-12-10-|
B|----------------------------------------------------------------------------------|
G|----------------------------------------------------------------------------------|
D|----------------------------------------------------------------------------------|
A|----------------------------------------------------------------------------------|
E|----------------------------------------------------------------------------------|

				(1:10)
E|---------------13-15-16-18-20-21-4------------------------------------|
B|6-8-9-11-14-13--------------------------------------------------------|
G|----------------------------------------------------------------------|
D|----------------------------------------------------------------------|
A|----------------------------------------------------------------------|
E|----------------------------------------------------------------------|

				(1:22)
E|--------------------------6-3-6-5-3-3-3-5-6S5S6-5-3-11-13-11-10-8-8s10s8-8-10-11s10s11-|
B|6-8-9-8-6-------3-5-6-5-3--------------------------------------------------------------|
G|----------6-8--------------------------------------------------------------------------|
D|--------------8------------------------------------------------------------------------|
A|---------------------------------------------------------------------------------------|
E|---------------------------------------------------------------------------------------|

			(The Outro 1:47)


E|----------------------------------------------------|
B|8-8-10-11s10-8-8s14-8-10-11s10--8S16-8-10-11s10-8-3-|
G|----------------------------------------------------|
D|----------------------------------------------------|
A|----------------------------------------------------|
E|----------------------------------------------------|
Tap to rate this tab
# A B C D E F G H I J K L M N O P Q R S T U V W X Y Z