Song name
# A B C D E F G H I J K L M N O P Q R S T U V W X Y Z

Misc Computer Games - Sonic Adventure - Speed Highway tab

                               Speed Highway
                              Sonic Adventure

Intro:
|--------------------------------------------------------------------------|
|-5---5--5--6--7-----5---5---5---7--5--7----5-5-5-5--6--7---5--5--5--7-----|
|-4---4--4--5--6-----4---4---4---6--4--6----4-4-4-4--5--6---4--4--4--6-----|
|-----------------------------------------------------------------------7--|
|-----------------------------------------------------------------------7--|
|--------------------------------------------------------------------------|

|------------------------------------------------------------------------|
|-5---5--5--6--7-----5---5---5---7--5--7----5-5-5-5--6--7---5--5--5--7---|
|-4---4--4--5--6-----4---4---4---6--4--6----4-4-4-4--5--6---4--4--4--6---|
|------------------------------------------------------------------------|
|------------------------------------------------------------------------|
|------------------------------------------------------------------------|

|------------------------------------------------------------------------|
|-5---5--5--6--7-----5---5---5---7--5--7----5-5-5-5--6--7---5--5--5--7---|
|-4---4--4--5--6-----4---4---4---6--4--6----4-4-4-4--5--6---4--4--4--6---|
|------------------------------------------------------------------------|
|------------------------------------------------------------------------|
|------------------------------------------------------------------------|

Chorus:
|-----------------------------------------|
|-----------------------------------------|
|-----------------------------------------|
|---4-2----------2--2h4-----4-2-----------|
|--------4-2-2h4----------------4-2-2h4-4-|
|-2----------------------2----------------|

|-----------------------------------------|
|-----------------------------------------|
|-----------------------------------------|
|---4-2----------2--2h4-----4-2-----------|
|--------4-2-2h4----------------4-2-2h4-4-|
|-2----------------------2----------------|

|-----------------------------------------|
|-----------------------------------------|
|-----------------------------------------|
|---4-2----------2--2h4-----4-2-----------|
|--------4-2-2h4----------------4-2-2h4-4-|
|-2----------------------2----------------|

 Guitar 1:
|-----------------------------------------|
|-----------------------------------------|
|-----------------------------------------|
|---4-2----------2--2h4-----4-2-----------|
|--------4-2-2h4----------------4-2-2h4-4-|
|-2----------------------2----------------|
|                                         |
|                                         |
|Guitar 2:                                |
|-----------------------------------------|
|-----------------------------------------|
|---6-4----------4--4h6-----6-4-----------|
|--------6-4-4h6----------------6-4-4h6-6-|
|-4----------------------4----------------|
|-----------------------------------------|

2nd Chorus:
|-5-5-5-5--5-5--4-5--------------------5-5-5-5--5-5--4-5---------------|
|-5-5-5-5--5-5--4-5---5-5-5-5--6--7----5-5-5-5--5-5--4-5---5-5-5--7--8-|
|---------------------4-4-4-4--5--6------------------------4-4-4--6--7-|
|----------------------------------------------------------------------|
|----------------------------------------------------------------------|
|----------------------------------------------------------------------|

|-5-5-5-5--5-5--4-5--------------------5-5-5-5--5-5--4-5---------------|
|-5-5-5-5--5-5--4-5---5-5-5-5--6--7----5-5-5-5--5-5--4-5---5-5-5--7----|
|---------------------4-4-4-4--5--6------------------------4-4-4--6----|
|--------------------------------------------------------------------7-|
|--------------------------------------------------------------------7-|
|----------------------------------------------------------------------|


|-----------------------------|
|-----------------------------|
|-2------2-2-3-3-4-4-5-5-6--7-|
|-2--2---2-2-3-3-4-4-5-5-6--7-|
|----0------------------------|
|-----------------------------|
Tap to rate this tab
 
# A B C D E F G H I J K L M N O P Q R S T U V W X Y Z