Song name
# A B C D E F G H I J K L M N O P Q R S T U V W X Y Z

Misc Computer Games - Star Fox Theme tab

                           Star Fox Opening Theme

|-------------------------------------------------------------|
|-----------------------------------------10-8--8-------------|
|-7--7--7---7--7-9-10------7--9--10---10----------10-9-7-9--7-|
|-------------------------------------------------------------|
|-------------------------------------------------------------|
|-------------------------------------------------------------|

|------------------------------------------------12-10---10-------------15-|
|-10--10--10---10--10-12-13------10--12--13---13------------13-12-10-12----|
|--------------------------------------------------------------------------|
|--------------------------------------------------------------------------|
|--------------------------------------------------------------------------|
|--------------------------------------------------------------------------|

|-8--8--8---6----------------------------10--8---8---------------|
|-------------8-6-8------8--10--11---11------------11-10-8-10--8-|
|----------------------------------------------------------------|
|----------------------------------------------------------------|
|----------------------------------------------------------------|
|----------------------------------------------------------------|

|-8--8--8---6----------------------------10--8---8-------------13-|
|-------------8-6-8------8--10--11---11------------11-10-8-10-----|
|-----------------------------------------------------------------|
|-----------------------------------------------------------------|
|-----------------------------------------------------------------|
|-----------------------------------------------------------------|

|-13-13-13---13-13-13--13-13-13-13-13-13-13-|
|-11-11-11---11-11-11--11-11-11-11-11-11-11-|
|-10-10-10---10-10-10--10-10-10-10-10-10-10-|
|-------------------------------------------|
|-------------------------------------------|
|-------------------------------------------|
Tap to rate this tab
# A B C D E F G H I J K L M N O P Q R S T U V W X Y Z