Guitaretab - guitar tabs
Song name
# A B C D E F G H I J K L M N O P Q R S T U V W X Y Z

Misc Computer Games - Hack - Puchiguso Farm tab

--------------------------------------------------------------------
Title: Puchiguso Farm
Album: .Hack Original Soundtrack; Track 09: Disc 1
Tabbed by: Ifyhard; ifyhard2@yahoo.com
--------------------------------------------------------------------
*My very first tab... which I didn't send up till now. Wow, makes sense?
No? Oh well...

If you've played the wholse series of this game (its a quadrilogy: Infection,
Mutation, Outbreak and Quarantine) and/or have watched the anime (series: Sign
and OVAs: Legend of the Twilight and Liminality), you should be familiar with
this tranquil tune.

*You can download the .Hack OSTs at www.boxtorrents.com. You'll need a bittorrent
to be able to download ANYTHING in that site. Oh and btw, be a seeder, not only a
leecher.

*Any comments, suggestion, tips on how to tab properly :), or anything really
(except flames), feel free to e-mail me.

Enjoy! ^_^/no1

Standard tuning: (low to high) EADGBe

1st part:
=========

|-----------------------------------------------------------------|
|5--6--6-8---------------8~--5---5--5--6-8-6~--6~--6--5--5-6-8~---|
|----------5~--5-7-5-4-5------------------------------------------|
|----------------------------------------------------------------7|
|-----------------------------------------------------------------|
|-----------------------------------------------------------------|

|----------------------------------------------------------|
|5--6--6-8---------------8~--5---5--5--6-8-6~--6~---10--10-|
|----------5~--5-7-5-4-5-----------------------------------|
|----------------------------------------------------------|
|----------------------------------------------------------|
|----------------------------------------------------------|

------------|
-8-10-8-8~--|*This transition should be picked quite fast. :)
------------|(in half a second actually :D)
------------|
------------|
------------|


2nd part:
=========
[ Tab from: http://www.guitaretab.com/m/misc-computer-games/64905.html ]
|-----------------12~-----12--12-10-----------10---7---4----------|
|---------10--13---------10----------13-12-13-11---8---5--5-------|
|-10--10----------------10--------------------10---7---4--5-------|
|---------------------------------------------------------5-------|
|-----------------------------------------------------------------|
|-----------------------------------------------------------------|

|-10--10---9--8----------7--8~~------------8---7--7--9--9--------|
|-11--11---10-9------10----------------10------------------8--8--|
|-10--10---9--8--------------------------------------------------|
|----------------------------------------------------------------|
|----------------------------------------------------------------|
|----------------------------------------------------------------|

-7--7--------------------------12----------12--12-10--------------|
-------8~~-------------10--13-------10----10----------13-12-13----|
---------------10--10-----------------10-10-----------------------|
----------------------------------------12------------------------|
------------------------------------------------------------------|
------------------------------------------------------------------|

|-10--15--7--10~---10~10~~9~~8~~-------7--8~----------------8-----|
|-11--16--8--11~---11~11~~10~9~~---10-------------------10--------|
|-10--15--7--10~---10~10~~9~~8~~----------------10--10------------|
|-----------------------------------------------------------------|
|-----------------------------------------------------------------|
|-----------------------------------------------------------------|

|-7~-10~-7~-10~-7-10----------------------------------------------|
|-8~-11~-8~-11~-8-11----------------------------------------------|
|-7~-10~-7~-10~-7-10----------------------------------------------|
|-----------------------------------------------------------------|
|-----------------------------------------------------------------|
|-----------------------------------------------------------------|

*The fast finger speed starts now... This has to be done in a

little UNDER 2 seconds. The harmonics easily comes out if you pick
it strongly. If you still can't do it, try the harmonics in the B
string, 5th fret.

|-----------------(7)==>harmonics---------------------------------|
|-----------------------------------------------------------------|
|-------------7-9-------------------------------------------------|
|---------7-9-----------------------------------------------------|
|-----6-8---------------------------------------------------------|
|-4-7-------------------------------------------------------------|

Thatís it! 1st tab accomplished! ^_^
Related for Hack - Puchiguso Farm tab