Song name
# A B C D E F G H I J K L M N O P Q R S T U V W X Y Z

Misc Computer Games - Final Fantasy X - Cloister Of Trials tab

 These guitar tabs should be pretty accurate.
 Hope you enjoy!!!

                     *Cloister of Trials*
   

e|---4-----2--5--4----------4-----2--5--4--9-5--2-4--12--9--------4--12-|
B|-----4-5----------2--4--5---4-5---------------------------------------|
G|----------------------------------------------------------------------|
D|----------------------------------------------------------------------|
A|----------------------------------------------------------------------|
E|----------------------------------------------------------------------|

e|--9-------------------------------------------------------------------|
B|-----------4---5-7---5-4---5---4-2---2----------4---5-7---5-4---2-4-5-|
G|-----------------------------------2---1------------------------------|
D|----------------------------------------------------------------------|
A|----------------------------------------------------------------------|
E|----------------------------------------------------------------------|

e|-7-9-10---------------------------------------------------------------|
B|----------------------------------------------------------------------|
G|----------------------------------------------------------------------|
D|----------------------------------------------------------------------|
A|----------------------------------------------------------------------|
E|----------------------------------------------------------------------|
Tap to rate this tab
# A B C D E F G H I J K L M N O P Q R S T U V W X Y Z