Song name
# A B C D E F G H I J K L M N O P Q R S T U V W X Y Z

Misc Computer Games - Sim City 2000 Theme tab

Hey there all you hard core old school gamers! Here comes a blast from the past that
I'm sure you all remember.

K, here it goes. If your not great at playing this far down on the neck yet, you can
make the song go smoother by only playing the lowest note when there are multiple notes
to play at the same time.  Doesnt sound as good but it still sounds close enough (except
for the 5 chord, play the B string note for that)


e|--8--8--8--8-----------------------------8--8--8--8-----------------------|
B|--11-11-10-10--8------------7------------11-11-10-10--8--8-8-8-8-8-8------|
G|---------------9------7--9-----9--7-------------------9--8-8-8-8-8-8------|
D|--------------------9----------------9------------------------------------|
A|--------------------------------------------------------------------------|
E|--------------------------------------------------------------------------|

e|--8--8--8--8--------------------------------------------------------------|
B|--11-11-10-10--8----------------7----------------------7------------------|
G|---------------9-------7--9-9------9--7-9------7--9-9-----9--7-9----------|
D|--------------------9-----------------------9-----------------------------|
A|--------------------------------------------------------------------------|
E|--------------------------------------------------------------------------|

repeat a couple times and maybe end with something like this... pretty much the
same but i cant figure out a good end combo to get it to sound right.

e|---------------8----------------------------------------------------------|
B|--11-11-10-10-------------------------------------------------------------|
G|--------------------------------------------------------------------------|
D|--------------------------------------------------------------------------|
A|--------------------------------------------------------------------------|
E|--------------------------------------------------------------------------|
Tap to rate this tab
# A B C D E F G H I J K L M N O P Q R S T U V W X Y Z