Song name
# A B C D E F G H I J K L M N O P Q R S T U V W X Y Z

Misc Computer Games - Final Fantasy 6 - Celes tab

-------------------------------------------------------------------------------
			     Celes Theme (Final Fantasy VI)
-------------------------------------------------------------------------------
Tabbed by: Chris9898

Tuning: Standard

e|---------------------0--0--------------------------------------------|
B|----0-------0-4--2-4------4-2-0--0-0---------------------------------|
G|1-2-----1-2--------------------------2-1-2--2-2-1-0-1--1-1-1-0---0---|
D|------2--------------------------------------------------------3---3-|
A|---------------------------------------------------------------------|
E|---------------------------------------------------------------------|

===============================================================================
Tap to rate this tab
 
# A B C D E F G H I J K L M N O P Q R S T U V W X Y Z