Song name
# A B C D E F G H I J K L M N O P Q R S T U V W X Y Z

Misc Computer Games - Kingdom Hearts - World Selection tab

Help us improve GuitareTab! Take a short survey!
 
e|--1-3-358-1-3----1-3-358-1-3|  
b|-1-----------3-1------------|
g|----------------------------|
d|----------------------------|
a|----------------------------|
e|----------------------------|

and here one octave deeper:

e|------------------------------|
b|------------------------------|
g|-----0-025---0-------0-025---0|
d|---3-------3-------3-------3--|
a|-3-------------5-3------------|
e|------------------------------|



Submitted by:Emil
Related for Kingdom Hearts - World Selection tab