Song name
# A B C D E F G H I J K L M N O P Q R S T U V W X Y Z

Misc Computer Games - Legend Of Zelda - Market tab

This is a tab for the theme from the market in Hyrule in the Ocarina of Time.
It's only got two parts that are repeated through it. ok here we go.....


Part 1
e|----------------------------------------12-14------------------------------|
B|----15---15--15-13-12-13----15---15--15-------15------15---15--15-13-12-13-|
G|---------------------------------------------------------------------------|
D|---------------------------------------------------------------------------|
A|---------------------------------------------------------------------------|
E|---------------------------------------------------------------------------|

e|---------------------------------------------------------------------------|
B|---15--13-12-13-12---------------------------------------------------------|
G|--------------------14-12--------------------------------------------------|
D|---------------------------------------------------------------------------|
A|---------------------------------------------------------------------------|
E|---------------------------------------------------------------------------|

Part 2

e|---------------------------------------------------------------------------|
B|--------------------12-----------12-13-12---------12-----------------------|
G|---14---14-14-12-14----14----14------------14-12------14-------------------|
D|---------------------------------------------------------------------------|
A|---------------------------------------------------------------------------|
E|---------------------------------------------------------------------------|

                                                   
e|---------------------------------------------------------------------------|
B|--------------------12-----------------12-13-15-13-12----------------------|
G|---14---14-14-12-14----14-----------14----------------14-------------------|
D|---------------------------------------------------------------------------|
A|---------------------------------------------------------------------------|
E|---------------------------------------------------------------------------|

e|---------------------------------------------------------------------------|
B|--------------------12-----------12-13-12---------12-----------------------|
G|---14---14-14-12-14----14----14------------14-12------14-------------------|
D|---------------------------------------------------------------------------|
A|---------------------------------------------------------------------------|
E|---------------------------------------------------------------------------|

e|---------------------------------------------------------------------------|
B|--------------------12-----------------12-13-15----------------------------|
G|---14---14-14-12-14----14----14-----14-------------------------------------|
D|---------------------------------------------------------------------------|
A|---------------------------------------------------------------------------|
E|---------------------------------------------------------------------------|

Just repeat those parts whenever needed.

Tap to rate this tab
# A B C D E F G H I J K L M N O P Q R S T U V W X Y Z