Song name
# A B C D E F G H I J K L M N O P Q R S T U V W X Y Z

Misc Computer Games - Legend Of Zelda - Sheiks tab

This is a tab for Sheiks theme on the Ocarina of Time game. I thought it was cool
so i tabbed it out. I'm not 100% sure about it, but it seems right. 
Theres only this one part thats repeated the whole time.


~ = Hold note

Tuning:standard

e|----------------------------------------------------------------------------|
B|--------------------------------------------------------------6-3-----------|
G|-3-------------------3------------------------------------3-5-------3-5~----|
D|---3-5--3--------------3-5--3------3-----------------3-5--------------------|
A|------------5-1-3~--------------5----3~------1--3-5-------------------------|
E|----------------------------------------------------------------------------|

e|----------------------------------------------------------------------------|
B|------------------6-3-------------------------------------------------------|
G|--------------3-5-----3-5~-------3------3-----------------------------------|
D|----------3-5---------------3--5---3--5---3---------------------------------|
A|---1--3-5-------------------------------------5-1-3~------------------------|
E|----------------------------------------------------------------------------|

and thats all.
Tap to rate this tab
# A B C D E F G H I J K L M N O P Q R S T U V W X Y Z