Guitaretab - guitar tabs
Song name
# A B C D E F G H I J K L M N O P Q R S T U V W X Y Z

Misc Computer Games - Super Mario Brothers 3 - Overworld tab

email: rdlilly@mchsi.com
Tuning: Standard (E A D G B e)

I love Mario 3 so much that I decided to make a tab for all 8 worlds, even the Warp Zone.
I tabbed the Super Nintendo version, so I apologize if the NES version is in a different
key or something.

World 1
|------------------------------|------------------------------|
|------------------------------|------------------------------|
|0---0---2---2---4---4-2---2---|0---0---2---2-4---------------|
|------------------------------|------------------------------|
|---3-------3-------3-----3----|---3-------3------------------|
|------------------------------|------------------------------|

|------------------------------|------------------------------|
|1---1---3---3---5---5-3---3---|1---1---3---3-5---------------|
|------------------------------|------------------------------|
|---3-------3-------3-----3----|---3-------3------------------|
|------------------------------|------------------------------|
|------------------------------|------------------------------|

|------------------------------|------------------------------|
|------------------------------|------------------------------|
|0---0---2---2---4---4-2---2---|5-5----------5-5--------------|
|------------------------------|------------------------------|
|---3-------3-------3-----3----|------------------------------|
|------------------------------|------------------------------|

World 2
|----------------|----------------|
|----------------|----------------|
|----1-----------|----------------|
|--------3-------|2---2-3---------|
|----------------|----------------|
|----------------|----------------|
|^melody^         vbassv          |
|----------------|----------------|
|----------------|----------------|
|----------------|----------------|
|3-----3-----1-2-|3-----3-----1-2-|
|----------3-----|----------3-----|
|----------------|----------------|

World 3
|7-------5-------|4-------5-------|8-------7-------|6-------7-------|
|----------------|----------------|----------------|----------------|
|----------------|----------------|----------------|----------------|
|----------------|----------------|----------------|----------------|
|----------------|----------------|----------------|----------------|
|----------------|----------------|----------------|----------------|

|10------8-------|7-------5-------|8-------7-------|5-------4-------|
|----------------|----------------|----------------|----------------|
|----------------|----------------|----------------|----------------|
|----------------|----------------|----------------|----------------|
|----------------|----------------|----------------|----------------|
|----------------|----------------|----------------|----------------|

World 4
|----------------|7---------------|9-------10------|12------9-------|
|8-------10------|--------10------|----------------|----------------|
|----------------|----------------|----------------|----------------|
|----------------|----------------|----------------|----------------|
|----------------|----------------|----------------|----------------|
|----------------|----------------|----------------|----------------|

|10------17------|15--------------|----------------|----------------|
|----------------|--------15--16--|17----------12--|10------9-------|
|----------------|----------------|----------------|----------------|
|----------------|----------------|----------------|----------------|
|----------------|----------------|----------------|----------------|
|----------------|----------------|----------------|----------------|
[ Tab from: http://www.guitaretab.com/m/misc-computer-games/68674.html ]
World 5
|------------------------|------------------------|
|------1---1-------1-----|----------1-------1---1-|
|------------------------|------------------------|
|------------------------|------------------------|
|------------------------|------------------------|
|------------------------|------------------------|
|^melody^                 vbassv                  |
|------------------------|------------------------|
|------------------------|------------------------|
|------------------0-----|------------------0-----|
|------------2-----------|------------2-----------|
|3--3--3--3--------------|---------3--------------|
|------------------------|------------------------|

|------1---1-------1-----|----------1-------1---1-|
|------------------------|------------------------|
|------------------------|------------------------|
|------------------------|------------------------|
|------------------------|------------------------|
|------------------------|------------------------|
|^melody^                 vbassv                  |
|------------------------|------------------------|
|------------------1-----|------------------1-----|
|------------2-----------|------------2-----------|
|3--3--3--3--------------|---------3--------------|
|------------------------|------------------------|
|------------------------|------------------------|

World 6
|15------------------15------------13----|
|-----12---16---12--------12---16--------|
|--12---12---12---12---12---12---12---12-|
|----------------------------------------|
|----------------------------------------|
|----------------------------------------|

|16------------------16------------14----|
|-----13---17---13--------13---17--------|
|--13---13---13---13---13---13---13---13-|
|----------------------------------------|
|----------------------------------------|
|----------------------------------------|

World 7
|--------------------------|--------------------------|
|------4---6---------------|----------6h7p6---4-------|
|----5---------------------|--------------------5---3-|
|--------------------------|--------------------------|
|--------------------------|--------------------------|
|--------------------------|--------------------------|

|--------------------------|----------8-10--11--------|
|------4---6---------------|--------------------------|
|----5---------------------|--------------------------|
|--------------------------|--------------------------|
|--------------------------|--------------------------|
|--------------------------|--------------------------|

World 8
|----------------|----------------|----------------|----------------|
|----------------|----------------|----------------|----------------|
|--------4-------|3---------------|--------7-------|6---------------|
|3---------------|--------2-------|6---------------|--------4-------|
|----------------|----------------|----------------|----------------|
|----------------|----------------|----------------|----------------|

World 9 Warp Zone
|------15----------------|------16----------18----|
|------------------------|------------------------|
|12----------------12----|13----------------------|
|------------------------|------------------------|
|------------------------|------------------------|
|------------------------|------------------------|

|15----------------15----|13--------------------------|
|------------------------|----------------------------|
|------12----------------|------13----------15--14-13-|
|------------------------|----------------------------|
|------------------------|----------------------------|
|------------------------|----------------------------|

Phew! Glad that's done! It took a while to figure out, and almost longer to tab.
Was worth it, though! For questions or comments, email or PM me.
Related for Super Mario Brothers 3 - Overworld tab
×
Super Mario Brothers 3 - Overworld