Song name
# A B C D E F G H I J K L M N O P Q R S T U V W X Y Z

Misc Computer Games - Legend Of Zelda - Bolero Of Fire tab

Help us improve GuitareTab! Take a short survey!
Bolero of Fire
e|---------5---5----|---------5---5----|---------6---6----|---------6---6----|
B|-6---6-----6---6--|-6---6-----6---6--|-8---8-----8---8--|-8---8-----8---8--|
G|---7---7----------|---7---7----------|---9---9----------|---9---9----------|
D|------------------|------------------|------------------|------------------|
A|------------------|------------------|------------------|------------------|
E|------------------|------------------|------------------|------------------|

e|-5---5---10----10----12----12----15----15----13----13-----|
B|---6---6----10----10----14----14----17----17----15----15--|
G|----------------------------------------------------------|
D|----------------------------------------------------------|
A|----------------------------------------------------------|
E|----------------------------------------------------------|

e|-12--------------|
B|-----------------|
G|----14-----------|
D|-------15-14-12--|
A|-----------------|
E|-----------------|
Related for Legend Of Zelda - Bolero Of Fire tab