Song name
# A B C D E F G H I J K L M N O P Q R S T U V W X Y Z

Misc Computer Games - Kirbys Dreamland - Overworld tab

Tabbed by: SethMegadefan
email: sethmegadefan@hotmail.com
Tuning: Standard

If you've ever played Kirby's Dreamland for Gameboy, I think you'll really enjoy
this. It didn't take too long to figure out,
and it's not very hard to play, so give it a shot. Hopefully you know the rhythm.

Couple measures of rest, then:
|--------------------15--20--19--17--15----|
|-------13----13--17-----------------------|
|12--12------------------------------------|
|------------------------------------------|
|------------------------------------------|
|------------------------------------------|

|----15------------------------------------|
|17-----18--15--17-15--17--15-13-----------|
|------------------------------------------|
|------------------------------------------|
|------------------------------------------|
|------------------------------------------|

|--------------------15--20--19--17--15----|
|-------13----13--17-----------------------|
|12--12------------------------------------|
|------------------------------------------|
|------------------------------------------|
|------------------------------------------|

|----15------------------------------------|
|17-----18--15--17-15--17--15-13-----------|
|------------------------------------------|
|------------------------------------------|
|------------------------------------------|
|------------------------------------------|

|----------------------------|
|13--13-15-17----13--15--13--|
|----------------------------|
|----------------------------|
|----------------------------|
|----------------------------|

Couple more measures of rest, then the minor part:
|------------------------15-------15-------------|
|16---15--16-18---16--18------18--------------15-|
|------------------------------------17---17-----|
|------------------------------------------------|
|------------------------------------------------|
|------------------------------------------------|

|------------------------15----------20----------|
|16---15--16-18---16--18----------------------15-|
|-----------------------------------------17-----|
|------------------------------------------------|
|------------------------------------------------|
|------------------------------------------------|

|------------------------15-------15-------------|
|16---15--16-18---16--18------18--------------15-|
|------------------------------------17---17-----|
|------------------------------------------------|
|------------------------------------------------|
|------------------------------------------------|

|------------------------------------15---|
|16---15--16-18---16--18-15---------------|
|-----------------------------------------|
|-----------------------------------------|
|-----------------------------------------|
|-----------------------------------------|

Now repeat from the beginning! This game's awesome, and so is the theme.
Hope you enjoyed the tab, and I sure hope it's accurate! Any questions,
comments, or feedback (preferably positive), feel free to email me at
sethmegadefan@hotmail.com
Tap to rate this tab
# A B C D E F G H I J K L M N O P Q R S T U V W X Y Z