Guitaretab - guitar tabs
Song name
# A B C D E F G H I J K L M N O P Q R S T U V W X Y Z

Misc Computer Games - Katamari Damacy - Katamari On The Rock And Roll tab

--------------------------------------------------------------------------------
Katamari Damacy - Katamari On The Rock (And Roll)
--------------------------------------------------------------------------------

Song: Katamari On The Rock (And Roll)
Artist: N/A
Album: N/A

Tabbed By: A.Y.K. (03.25.06)

Notes: Here's a preliminary version of a rock version of the
song "Katamari On The Rock" for the electric guitar.  It only
has the basic, shortened versions of the parts at the moment.

h = Hammer On
p = Pull Off
 = Slide (Down)
/ = Slide (Up)
tp = Tremolo Pick
~ = VIbrato

Phrase 1: (Guitar 1)
--------------------------------------------------------------------------------|
--------------------------------------------------------------------------------|
--------------------------------------------------------------------------------|
--------------------------------------------------------------------------------|
--------------------------------------------------------------------------------|
--------------------------------------------------------------------------------|  x 1

Phrase 1: (Guitar 2)
----------------------------------------------------------------------------------|
----------------------------------------------------------------------------------|
----------------------------------------------------------------------------------|
----------------------------------------------------------------------------------|
----------------------------------------------------------------------------------|
-2/7~-----------------------------------------------------------------------------|  x1

Phrase 2: (Guitar 1)
--------------------------------------------------------------------------------------|
--------------------------------------------------------------------------------------|
--------------------------------------------------------------------------------------|
--------------------------------------------------------------------------------------|
----2--6--4--6/7--6--2----------------------------------------------------------------|
-2------------------------------------------------------------------------------  x 2-|

Phrase 2: (Guitar 2)
-------------------------------------------------------------------------------------|
-------------------------------------------------------------------------------------|
-------------------------------------------------------------------------------------|
-------------------------------------------------------------------------------------|
-------------------------------------------------------------------------------------|
/7~----------------------------------------------------------------------------  x 2-|

Phrase 3: (Guitar 1)
--------------------------------------------------------------------------------------|
--------------------------------------------------------------------------------------|
--------------------------------------------------------------------------------------|
--------------------------------------------------------------------------------------|
----2--6--4--6/7--6--2----------------------------------------------------------------|
-2------------------------------------------------------------------------------  x 2-|
[ Tab from: http://www.guitaretab.com/m/misc-computer-games/70646.html ]
Phrase 3: (Guitar 2)
---------------------------------------------------------------------------------|
---------------------------------------------------------------------------------|
---------------------------------------------------------------------------------|
---------------------------------------------------------------------------------|
---------------------------------------------------------------------------------|
-2--2--2--4--5--5--5--5--7--9--9--9--11--12--9--9--9--11--------------  x 2------|

Phrase 4: (Guitar 1)
--------------------------------------------------------------------------------------|
--------------5--4--------------------------------------------------------------------|
----4--4--6--------4--------4---------------------------------------------------------|
-4---------------------6--4----4--7--7--9--9--7--6--4---------------------------------|
--------------------------------------------------------------------------------------|
--------------------------------------------------------------------------------  x 2-|

Phrase 4: (Guitar 2)
---------------------------------------------------------------------------------|
---------------------------------------------------------------------------------|
---------------------------------------------------------------------------------|
---------------------------------------------------------------------------------|
---------------------------------------------------------------------------------|
-2--2--2--4--5--5--5--5--7--9--9--9--11--12--9--9--9--11--------------  x 2------|

Phrase 5: (Guitar 1)
--------------5--4--------------------------------------------------------------------|
----5--5--7--------5--------5---------------------------------------------------------|
-4---------------------6--4----4--7--7--9--9--7--6--4---------------------------------|
--------------------------------------------------------------------------------------|
--------------------------------------------------------------------------------------|
--------------------------------------------------------------------------------  x 1-|

Phrase 5: (Guitar 2)
-----------------------------------------------------------------------------------|
-----------------------------------------------------------------------------------|
-----------------------------------------------------------------------------------|
-----------------------------------------------------------------------------------|
-2/7~------------------------------------------------------------------------------|
-----------------------------------------------------------------------------------|  x1

Phrase 6: (Guitar 1)
--------------------------------------------------------------------------------------|
--------------5--4--------------------------------------------------------------------|
----4--4--6--------4--------4---------------------------------------------------------|
-4---------------------6--4----4--7--7--9--9--7--6--4------------------2~-------------|
------------------------------------------------------------7--6h7--------------------|
--------------------------------------------------------------------------------  x 1-|

Phrase 6: (Guitar 2)
---------------------------------------------------------------------------------|
---------------------------------------------------------------------------------|
---------------------------------------------------------------------------------|
---------------------------------------------------------------------------------|
---------------------------------------------------------------------------------|
-2/7~------------------------------------------------------------------2~--------|  x1
Related for Katamari Damacy - Katamari On The Rock And Roll tab
×
Katamari Damacy - Katamari On The Rock And Roll