Song name
# A B C D E F G H I J K L M N O P Q R S T U V W X Y Z

Misc Computer Games - Rush 2 Theme tab

Rush 2 Extreme Racing Theme Tab
By: drm>r3363

e ]---------------------------------------------|
B ]---------------------------------------------|
G ]---------------------------------------------|  (Repeat)
D ]---------------------------------------------|
A ]---0-0-0---3-3-5-3-0-0-0---3-3----0-0-0------|
E ]-------------------------------3-4-----------|

or...

e ]---0-0-0---3-3-5-3-0-0-0---3-3----0-0-0------|
B ]------------------------------3-4------------|
G ]---------------------------------------------|  (repeat)
D ]---------------------------------------------|
A ]---------------------------------------------|
E ]---------------------------------------------|
Tap to rate this tab
# A B C D E F G H I J K L M N O P Q R S T U V W X Y Z