Song name
# A B C D E F G H I J K L M N O P Q R S T U V W X Y Z

Misc Computer Games - Megaman - Chosen tab

-------------------------------------------------------------------------------
			  CHOSEN - Megaman
-------------------------------------------------------------------------------
Tabbed by:Rafa88offspring
Email:rafa88offspring@hotmail.com

Tuning: standard

This is the song that plays when you select a stage and the villain's name
shows up

(Guitar 1)
e|--------------------------------------------14-14-14-15-13----13-14-15--|
B|-13-13-13----13---15-15-15-13-15---16-16-16----------------16-----------|
G|----------15------------------------------------------------------------|
D|------------------------------------------------------------------------|
A|------------------------------------------------------------------------|
E|------------------------------------------------------------------------|

(Guitar 2)
e|-------------------------------5-5-5-6-4---4-5-6--|
B|-4-4-4---4---6-6-6-4-6---7-7-7-----------7--------|
G|-------6------------------------------------------|
D|--------------------------------------------------|
A|--------------------------------------------------|
E|--------------------------------------------------|

(Guitar 3)
e|-------------------------------2-2-2-3-1---1-2-3--|
B|-1-1-1---1---3-3-3-1-3---4-4-4-----------4--------|
G|-------3------------------------------------------|
D|--------------------------------------------------|
A|--------------------------------------------------|
E|--------------------------------------------------|

(Bass Line)
G|-------------------3------------------------------|
D|----------------------------4-----7---------------|
A|-3----33333-2-1--1---1----------------------------|
E|--------------------------2---2-4---4-3-let-ring--|


| /  slide up
| \  slide down
| h  hammer-on
| p  pull-off
| ~  vibrato
| +  harmonic
| x  Mute note
===============================================================================
Tap to rate this tab
 
# A B C D E F G H I J K L M N O P Q R S T U V W X Y Z