Guitaretab - guitar tabs
Song name
# A B C D E F G H I J K L M N O P Q R S T U V W X Y Z

Misc Computer Games - Super Mario Brothers - Underwater tab

-------------------------------------------------------------------------------
1. 			  Super Mario Bros. - Underwater
-------------------------------------------------------------------------------
Tabbed by:DJXP [Dante Rabang]
Email:	danterabang@yahoo.com

Tuning: half step down

e|------------------------------| e|------------------------------------|
B|------8-9-11-1213-13-13-13-13| B|------------------------------------|
G|-8-10-------------------------| G|8-7-6-5-6-7-8-8-8-10-11------------|
D|------------------------------| D|------------------------------------|
A|------------------------------| A|------------------------------------|
E|------[G-U-I-T-A-R--1]--------| E|------[G-U-I-T-A-R--2]--------------|

e|-13----12-----13(v)-----------------13-----12-----14-13(v)---------|
B|-----------------------------13-14-16---------------------------------|
G|13-13-----12-----13(v)13-15-----------13-----12-----1413(v)---------|
D|----------------------------------------------------------------------|
A|----------------------------------------------------------------------|
E|---------------------------[G-U-I-T-A-R--1]---------------------------|

e|----------------------------------------------------------------------|
B|----------------------------------------------------------------------|
G|-------6-------5------6---------6-----------6------5------6------6----|
D|6----6-------5------6---------6-----------6------5------6------6------|
A|4-------3------4---------4-----------4------3------4------4--------|
E|---------------------------[G-U-I-T-A-R--2]---------------------------|
[ Tab from: http://www.guitaretab.com/m/misc-computer-games/74628.html ]
e|-11------10-----11(v)----------8-9-1011------------14-13(v)---------|
B|9--------------------------9-11----------------9----------------------|
G|-11------10-----11(v)-----------------11------------15-13(v)---------|
D|-----------------------------------------------10---------------------|
A|----------------------------------------------------------------------|
E|---------------------------[G-U-I-T-A-R--1]---------------------------|

e|----------------------------------------------------------------------|
B|----------------------------------------------------------------------|
G|------5--------4------5---------5----------5------5-----6------6------|
D|44--------3------4---------4----------4------5-----6------6--------|
A|-6--------5------6---------6----------6------3-----4------4----------|
E|---------------------------[G-U-I-T-A-R--2]---------------------------|

e|--16------16------16-----16/18--16-14------14------14---14/16-14-13-|
B|--18------16------15---------------16------14------13----------------|
G|13--------------------------------------------------------------------|
D|----------------------------------------------------------------------|
A|----------------------------------------------------------------------|
E|---------------------------[G-U-I-T-A-R--1]---------------------------|

e|----------------------------------------------------------------------|
B|---------6-------4-------3-------6---------7-------7-------7-------7--|
G|----------------------------------------------------------------------|
D|------6-------6-------6-------6---------8-------8-------8-------8-----|
A|----------------------------------------------------------------------|
E|---------------------------[G-U-I-T-A-R--2]---------------------------|

e|-----14-13-13-13--------------| e|-----8----8-8-8---------------------|
B|9-11--------------13-14(v)----| B|-9--------------------------------|
G|------------------------------| G|11----------------11\10-------------|
D|------------------------------| D|------------------------------------|
A|------------------------------| A|------------------------------------|
E|-------[G-U-I-T-A-R--1]-------| E|--------[G-U-I-T-A-R--2]------------|


Then repeat as much as necessary. Please rate to make my day. Comment too.
Related for Super Mario Brothers - Underwater tab