Guitaretab - guitar tabs
Song name
# A B C D E F G H I J K L M N O P Q R S T U V W X Y Z

Misc Computer Games - Chrono Cross - Times Scar tab

Time's Scar
Chrono Cross

Tabbed by:
Toshiro

Tuning:
Lead Guitar: E-A-D-G-B-E
Rhythm Guitar: E-A-D-G-B-E

--------------------------------------------------------------------------

LEAD GUITAR

Melody (start after Rhythm finishes intro)
|-----------------------------------------------------------|
|-----12---12---10------------------------------------------|
|-9----------------12-11-12-14---12h14p12-11-11--h12p11-9---|
|-----------------------------------------------------------|
|-----------------------------------------------------------|
|-----------------------------------------------------------|

|------------------9-10-12-p10h12p10-9-------------------------------------------|
|-----12---12---12---------------------12---10----10-h12-p10h12p10-----10---12---|
|-9--------------------------------------------12--------------------------------|
|--------------------------------------------------------------------------------|
|--------------------------------------------------------------------------------|
|--------------------------------------------------------------------------------|

|----------------------------------------------------------|
|-------------------10---12--------------------------------|
|-12-11-12-----12-------------12-14---12---11h12p11-9------|
|-------------------------------------------------------12-|
|----------------------------------------------------------|
|----------------------------------------------------------|

|--------------------------------------------------|
|-12---12h13p12-10---------------------------------|
|-------------------12--11--9-----11p9-7-7b(9)-----|
|--------------------------------------------------|
|--------------------------------------------------|
|--------------------------------------------------|

(faster part)
|---------------------------------------------------------10-----|
|---12-----10---8h10p8-7-8-7-------12-----10---8h10p8-7-8--------|
|-9------9-------------------7-9--------9------------------------|
|--------------------------------9-------------------------------|
|----------------------------------------------------------------|
|----------------------------------------------------------------|

|---------------------------------------------------------10-----|
|---12-----10---8h10p8-7-8-7-------12-----10---8h10p8-7-8--------|
|-9------9-------------------7-9--------9------------------------|
|--------------------------------9-------------------------------|
|----------------------------------------------------------------|
|----------------------------------------------------------------|

|-10-12----------------------------------10--------|
|-----------15p13-12---10---------------------12---|
|---------------------------12-----11h12-----------|
|--------------------------------------------------|
|--------------------------------------------------|
|--------------------------------------------------|
[ Tab from: http://www.guitaretab.com/m/misc-computer-games/76377.html ]
|-12----------------------------------------------------|
|--------15p13-12---10--------10h12p10------------------|
|------------------------12--------------11-12p11-9-----|
|-------------------------------------------------------|
|-------------------------------------------------------|
|-------------------------------------------------------|

|-12----------------------------------10--------|
|--------15p13-12---10---------------------12---|
|------------------------12-----11h12-----------|
|-----------------------------------------------|
|-----------------------------------------------|
|-----------------------------------------------|

|-12----------------------------------------------------|
|--------15p13-12---10--------10h12p10------------------|
|------------------------12--------------11-12p11-9-----|
|-------------------------------------------------------|
|-------------------------------------------------------|
|-------------------------------------------------------|

|-12----------------------------------10--------|
|--------15p13-12---10---------------------12---|
|------------------------12-----11h12-----------|
|-----------------------------------------------|
|-----------------------------------------------|
|-----------------------------------------------|

|-12-------------------------------------10-12-|
|--------15p13-12---10--------10h12p10---------|
|------------------------12--------------------|
|----------------------------------------------|
|----------------------------------------------|
|----------------------------------------------|

---------------------------------------------------------------------------

RHYTHM GUITAR

Intro
|---------------------------------------------------------0---|
|---------3-----3---------3-----3---------3-----3---------3---|
|-------0-----0---------0-----0---------0-----0---------0-4---|
|-----4-----4---------4-----4---------4-----4---------4-------|
|---2---------------2---------------2---------------2---------|
|-0---------------0---------------0---------------0-----------|

Melody
|-----------------------------------------0---------------0-------|
|---------3-----3---------3-----3-------3-------3-------3-------3-|
|-------0-----0---------0-----0-------0-------0-------0-------0---|
|-----4-----4---------4-----4-------4-------4-------4-------4-----|
|---2---------------2-------------3---------------3---------------|
|-0---------------0-----------------------------------------------|

|-------------------------2p0---------------0---0-----------0---0---|
|---------3-----3-------3-----3-------------0---0-----------0---0---|
|-------0-----0-------0---------0---------2-2---2---------2-2---2---|
|-----4-----4-------4-------------0-----3-----3---3-----3-----3---3-|
|---2---------------------------------3---------------3-------------|
|-0---------------0-----------------1---------------1---------------|

|-------------------------2p0---------------2-----------------------|
|---------3-----3-------3-----3-------------3---3---------0---------|
|-------0-----0-------0---------0-----------2-2---2-----0-------0---|
|-----4-----4-------4-------------0-----5-----------2-4-------2---2-|
|---2---------------------------------5---5-----------------3-------|
|-0---------------0-----------------3-------------------------------|

|---------------------------|
|-0---3---------------------|
|-0-0---0-----2-------------|
|-0-------0-4---4-5-4-5-----|
|-----------------7-5-7-----|
|---------------------------|

(faster part)
|-------------|
|-------------|
|-------------|
|---NOTHING---|
|-------------|
|-------------|
Related for Chrono Cross - Times Scar tab
Advertisement will be closed in 10 seconds