Song name
# A B C D E F G H I J K L M N O P Q R S T U V W X Y Z

Misc Computer Games - Sonic And Knuckles - Knuckles Theme tab

Sonic And Knuckles
Song: Knuckles Theme
Tuning: Standard (EADGBE)
Tabber: Dan Fallows (Sick of you)

E--17-15-15-15-15----------------------------------|
B-----------------17-17-17-15-17-15-13-13----------|
G--11-12-12-12-12-------------------------14-14-14-|
D-----------------14-14-14-12-14-12-10-10----------|
A-----------------------------------------12-12-12-|
E--------------------------------------------------|

E-5-5-5-5-5-8-|----8-10------------------|--------------------------|
B-------------|-10-------10--10-10-10-10-|-8------------------------|
G-------------|--------------------------|---9-9--------------------|
D-------------|--------------------------|--------10-12-14-12-10----|
A-------------|--------------------------|-----------------------12-|
E-------------|--------------------------|--------------------------|

E--17--17--15---------|----------------8----|
B--------------17--17-|-10-10-10-10-10---10-|
G--14--14--12---------|---------------------|
D--------------14--14-|---------------------|
A---------------------|---------------------|
E---------------------|---------------------|

E-8-10----------------|-12-10-8-10-8---------|
B------10-10-10-10-10-|--------------10-8-10-|
G---------------------|----------------------|
D---------------------|----------------------|
A---------------------|----------------------|
E---------------------|----------------------|
Tap to rate this tab
 
# A B C D E F G H I J K L M N O P Q R S T U V W X Y Z