Song name
# A B C D E F G H I J K L M N O P Q R S T U V W X Y Z

Misc Computer Games - Resident Evil 1 - Save Room tab

Help us improve GuitareTab! Take a short survey!
Resident Evil 1
Song: Resident Evil Save Room
Tuning: Standard
Tabber: Dan Fallows (Sick of you)

E--------1------|------------------|----------------------|
B---------------|-----6------------|----------------------|
G--0-2-3---3----|------------------|----------------------|
D-------------5-|-7-8---8----------|-15-------------------|
A---------------|---------10-12-13-|----13----------20----|
E---------------|------------------|-------15-17-18----18-|

|--------------------|
|--------------------|
|--------------------|
|----------20--------|
|-------------18-----|
|-20-22-23-------20--|

E----------------------|----------------------|
B----------------------|----------------------|
G----------------------|----------------------|
D-------20-------------|-20-------------20----|
A----------18----------|----18-------------18-|
E--22-23------20-22-23-|-------20-22-23-------|

|-----------------------|-------------------|
|-----------------------|-------------------|
|-----------------------|-------------------|
|-----------------------|-------------------|
|--17-15----------20----|----------20-------|
|--------15-17-18----18-|-15-17-18----18-15-|

E------------------------|-----------------------|-------------------|
B------------------------|-----------------------|-------------------|
G------------------------|-----------------------|-------------------|
D------------------------|----------------20-----|----------20-------|
A--------20--------------|-20----------------18--|-------------18----|
E--17-18----18--15-17-18-|----18-20-22-23--------|-20-22-23-------20-|

|----------------------|--------------------|
|----------------------|--------------------|
|----------------------|--------------------|
|-------20-------------|-20-----------------|
|----------18----------|-----18-17-15-------|
|-22-23-------20-22-23-|--------------15-15-|
Related for Resident Evil 1 - Save Room tab