Song name
# A B C D E F G H I J K L M N O P Q R S T U V W X Y Z

Misc Computer Games - Grand Theft Auto Liberty City Stories Theme tab

-------------------------------------------------------------------------------
			     Liberty City Stories Main Theme
-------------------------------------------------------------------------------
Tabbed by: Barry O' Donnell
Email: Baz_u2@yahoo.co.uk

Its not that long, but its my first tab. C&C welcome.

e|----------------------------------------|
B|----------------------------------------|
G|----------------------------------------|
D|---0-0-------0--------------------------|
A|-0-----8-7-8---7-8----------------------|
E|--------------------6-------------------|

e|----------------------------------------|
B|----------------------------------------|
G|----------------------------------------|
D|---0-0-------2h0-3----------------------|
A|-0-----8-7-8-------8-7------------------|
E|----------------------------------------|

-Baz-
Tap to rate this tab
# A B C D E F G H I J K L M N O P Q R S T U V W X Y Z