Guitaretab - guitar tabs
Song name
# A B C D E F G H I J K L M N O P Q R S T U V W X Y Z

Misc Computer Games - Devil May Cry 3 Theme tab

This is the main organ/choir instrumental heard during the prologue and the E3 video. In 
intro during the organ instrumental there is a choir going over it. I thought Id 
it into a solo and it sounds ace.

E/------------------------------8-10-8----------------------12--13-10----13-|
B/-10-10-10-12-10-10-9-12--10----------12-10-10--9-12--10-10--10-----10-9---|
G/--------------------------------------------------------------------------|
D/--------------------------------------------------------------------------|
A/--------------------------------------------------------------------------|
E/--------------------------------------------------------------------------|
[ Tab from: http://www.guitaretab.com/m/misc-computer-games/79265.html ]
E/--12-8---8-10-10-8-7---------------12---13-10----13-12-8---8-10-13-12-10-|
B/-9----8-7-----------10--9-12--10-10--10------10-9--9----8-7--------------|
G/-------------------------------------------------------------------------|
D/-------------------------------------------------------------------------|
A/-------------------------------------------------------------------------|
E/-------------------------------------------------------------------------|

E/-8--7-10--8(Let this final note ring through for a few seconds)------------|
B/---------------------------------------------------------------------------|
G/---------------------------------------------------------------------------|
D/---------------------------------------------------------------------------|
A/---------------------------------------------------------------------------|
E/---------------------------------------------------------------------------|
Related for Devil May Cry 3 Theme tab