Song name
# A B C D E F G H I J K L M N O P Q R S T U V W X Y Z

Misc Computer Games - Legend Of Zelda - Windmill Song tab

Song: Windmill Song (Song of Storms)
From: The Legend of Zelda - The Ocarina of Time (N64)

Standard Tuning

It starts off with the first block of Guitar 1 played twice,
then the two guitars played at the same time as shown


Guitar 1
|---------------------------------------------|---------------------------------------|
|------10--10----10-12-------13--13----10-12--|------10--10-----10-------10--10----10-|
|--------------9---------10----------9--------|--10----------10------10----------9----|
|--12-----------------------------------------|---------------------------------------|
|---------------------------------------------|---------------------------------------|
|---------------------------------------------|---------------------------------------|

|---------------------------------------------|----------------------------|
|------10--10----10-12-------13--13----10-12--|------10--10-----10---------|
|--------------9---------10----------9--------|--10----------9-------------|
|--12-----------------------------------------|----------------------------|
|---------------------------------------------|----------------------------|
|---------------------------------------------|----------------------------|



Guitar 2
|------10--------10----12--13-12-13-12--------|---------------------------------------|
|----10--------10----------------------13-10--|--10------------10----10---------------|
|---------------------------------------------|----------10-12---------------10-12-9--|
|--12--------12-------------------------------|------12------------------12-----------|
|---------------------------------------------|---------------------------------------|
|---------------------------------------------|---------------------------------------|

|------10--------10----12--13-12-13-12--------|----------------------------|
|----10--------10----------------------13-10--|--10------------10--10------|
|---------------------------------------------|----------10-12-------------|
|--12--------12-------------------------------|------12----------------12--|
|---------------------------------------------|----------------------------|
|---------------------------------------------|----------------------------|



Hope you're enjoying Twilight Princess
Tabbed by NintEndO
Tap to rate this tab
# A B C D E F G H I J K L M N O P Q R S T U V W X Y Z