Song name
# A B C D E F G H I J K L M N O P Q R S T U V W X Y Z

Misc Computer Games - Metal Gear Solid 4 - Old Snake tab

Help us improve GuitareTab! Take a short survey!
"Old Snake" by Harry Gregson-Williams
Metal Gear Solid 4: Guns of the Patriots

Tabbed by: Tim Nguyen (outerheaven2005@hotmail.com)
Date: 12/28/06

...I tabbed it from the TGS trailer...very easy..
Just let the notes ring out...

Part 1

E---13----------------16--13-13/14------|
B--------11-----11-11-------------------|
G---------------------------------------|
D---------------------------------------|
A---------------------------------------|
E---------------------------------------|

Part 2

E---14----------11-11--14--11-11/13-----|
B--------13-----------------------------|
G---------------------------------------|
D---------------------------------------|
A---------------------------------------|
E---------------------------------------|

Part 2 ending  (After every 2 rounds of Part 1 and 2, add the part 2 ending)

E---------------------------------------|
B---14/13-11----------------------------|
G---------------------------------------|
D---------------------------------------|
A---------------------------------------|
E---------------------------------------|
Related for Metal Gear Solid 4 - Old Snake tab