Guitaretab - guitar tabs
Song name
# A B C D E F G H I J K L M N O P Q R S T U V W X Y Z

Misc Computer Games - Megaman X - 2 Zeros tab

I'm the first one to ever post this and this is very very very rare to finds this tab.I 
it from a friend and it sounds really good once learned.  ;) ENJOY! Note: If used give 
to SlashU *me*. Thanx

~ = Let ring

e]----11-10-8-10-8-8-11~---14-13-11-12-11-10-11~-------------------|
b]-----------------------------------------------------------------|
g]-----------------------------------------------------------------|
d]-----------------------------------------------------------------|
a]-----------------------------------------------------------------|
E]-----------------------------------------------------------------|
[ Tab from: http://www.guitaretab.com/m/misc-computer-games/82983.html ]
e]----8-10-11-11-10-8-----------16-16------------------16-16-16-15-|
b]--------------------11-9-11---------16-15---16-18-16-------------|
g]-----------------------------------------------------------------|
d]-----------------------------------------------------------------|
a]-----------------------------------------------------------------|
E]-----------------------------------------------------------------|


(Exact Continuation of line 2)
e]-------------------------------------------------------------------|
b]----18-16-18-16----------------------------------------------------|
g]----------------15-16~---------------------------------------------|
d]-------------------------------------------------------------------|
a]-------------------------------------------------------------------|
E]-------------------------------------------------------------------|


And thats it. You can repeat forever if you want. It may look hard but it is truly very 
And dont change anything becuz i played this to get it exactly like the song from 
X2. Very hard work. Hope you can learn it!
Related for Megaman X - 2 Zeros tab
×
Megaman X - 2 Zeros