Song name
# A B C D E F G H I J K L M N O P Q R S T U V W X Y Z

Misc Computer Games - Mach Rider Theme tab

-----------------------------------------------------------------------------
			     The Mach Rider Theme from NES
-------------------------------------------------------------------------------
Tabbed by:me!!!


Tuning:standard!!

Main Theme
e|------------------------------------------------3-3--6--6-5----------------|
B|-------------------------------------------5-5---------------6-6-----------|
G|--------5--6-4-5-6-4-5--5-6-4-5-6-4-5--5-----------------------------------|
D|---------------------------------------------------------------------------|
A|---------------------------------------------------------------------------|
E|---------------------------------------------------------------------------|

e|-----------------------------------4-8-7-7-7-6-6-6-5-----------------------|
B|--------------------------------6---------------------6--------------------|
G|-------5--6-4-5-6-4-5--5-6-4-5---------------------------------------------|
D|---------------------------------------------------------------------------|
A|---------------------------------------------------------------------------|
E|---------------------------------------------------------------------------|

e|-----------------------16----20--20--20------------20-18-----20-18------20--20|
B|-------------------17------------------------------------17--------17---------|
G|----------13---17--------------------------(x3)-------------------------------|
D|------14----------------------------------------------------------------------|
A|--15--------------------------------------------------------------------------|
E|------------------------------------------------------------------------------|


   YOU ARE MACH RIDER
e|-------3-3-3---2-2-2---5-5-5---4-4---4-3-3-3-3-6-5-------------------------|
B|---------------------------------------------------------------------------|
G|---------------------------------------------------------------------------|
D|---------------------------------------------------------------------------|
A|---------------------------------------------------------------------------|
E|---------------------------------------------------------------------------|

Tap to rate this tab
# A B C D E F G H I J K L M N O P Q R S T U V W X Y Z