Song name
# A B C D E F G H I J K L M N O P Q R S T U V W X Y Z

Misc Computer Games - Streets Of Rage 2 Theme tab

intro
-|-------------13-15-|-17h18-17-------------------------|---------------------|
-|-10-11-13-13-------|----------18-18h20-18-18----------|---------------------|
-|-------------------|-------------------------17h19-17-|---------------------|
-|-------------------|----------------------------------|---------------------|
-|-------------------|----------------------------------|---------------------|
-|-------------------|----------------------------------|---------------------|


-|-17-15-13-13-17-20-17-15-|-18-18-18-17-15-13-13-15-15-|---------------------|
-|-------------------------|----------------------------|---------------------|
-|-------------------------|----------------------------|---------------------|
-|-------------------------|----------------------------|---------------------|
-|-------------------------|----------------------------|---------------------|
-|-------------------------|----------------------------|---------------------|

looped melody
part a
  F           G    F                   G
-|--------------|-5h6-5------------------|------------------------------------|
-|----------6-8-|-------6--6h8-6-6-------|------------------------------------|
-|-----5--5-----|------------------5h7-5-|------------------------------------|
-|-7-8----------|------------------------|------------------------------------|
-|--------------|------------------------|------------------------------------|
-|--------------|------------------------|------------------------------------|

   F         G      F                 G
-|-5-------5-8-5---|-6-6-6-5------------|-------------------------------------|
-|---8-6-6-------8-|---------8-6-6--8-8-|-------------------------------------|
-|-----------------|--------------------|-------------------------------------|
-|-----------------|--------------------|-------------------------------------|
-|-----------------|--------------------|-------------------------------------|
-|-----------------|--------------------|-------------------------------------|

part b
  A             E        G             D
-|-------------------|-11-------|-------------------|-------------|-----------|
-|-13-13-13-11-11----|----13-11-|-14-14-14-13-11----|----11h13-11-|-----------|
-|----------------13-|----------|----------------13-|-13----------|-----------|
-|-------------------|----------|-------------------|-------------|-----------|
-|-------------------|----------|-------------------|-------------|-----------|
-|-------------------|----------|-------------------|-------------|-----------|

  A             E          G             D
-|-------------------|-11-13-11-|-------------------|---------|---------------|
-|-13-13-13-11-11----|----------|-14-14-14-13-11----|------11-|---------------|
-|----------------13-|----------|----------------13-|-13------|---------------|
-|-------------------|----------|-------------------|---------|---------------|
-|-------------------|----------|-------------------|---------|---------------|
-|-------------------|----------|-------------------|---------|---------------|


rhythm part plays this - cues above the melody
part a
    F                     G
-e|-1-1--1-1--1-1--1-1--|-3-3--3-3--3-3--3-3-------------|
-B|----1----1----1----1-|----1----1----1----1------------|

part b
strum chords
   A  E  G  D
-|-0--0--3--2-----|
-|-2--0--0--3-----|
-|-2--1--0--2-----|
-|-2--2--0--0-----|
-|-0--2--2--0-----|
-|-0--0--3--------|
Tap to rate this tab
# A B C D E F G H I J K L M N O P Q R S T U V W X Y Z