Song name
# A B C D E F G H I J K L M N O P Q R S T U V W X Y Z

Misc Computer Games - Wild Arms - Surf Village tab

-|-------10-|-------10-|-------10-|----------|------7-|------7-|------7-|-----|
-|-12-13-12-|-12-13-12-|-12-13-12-|-13-12-12-|-8-10-8-|-8-10-8-|-10-8-8-|-----|
-|-------12-|-------11-|-------12-|----------|------9-|------9-|------9-|-----|
-|-------12-|----------|-------12-|----------|------9-|------9-|------9-|-----|
-|-------10-|----------|-------10-|----------|------7-|--------|------7-|-----|
-|----------|----------|----------|----------|--------|------8-|--------|-----|


-|-------10-|-------10-|-------10-|----------|------7-|------7-|-5-3-3-|-0----|
-|-12-13-12-|-12-13-12-|-12-13-12-|-13-12-12-|-8-10-8-|-8-10-8-|-----0-|---3--|
-|-------12-|-------11-|-------12-|-------12-|------9-|------9-|-----0-|------|
-|-------12-|----------|-------12-|----------|------9-|------9-|-----0-|------|
-|-------10-|----------|-------10-|----------|------7-|--------|-----2-|------|
-|----------|----------|----------|----------|--------|------8-|-----3-|------|

   this is the flutey melody part, i couldnt totally figure out the actual
-|--------------|--------------|------------------------|-backing guitar part-|
-|--------------|--------------|------------------------|---------------------|
-|----------4-5-|-4----------4-|-4-5-7--7-9-10-12-9-7-9-|---------------------|
-|-4-5-7--7-----|---7-5--5-7---|------------------------|---------------------|
-|--------------|--------------|------------------------|---------------------|
-|--------------|--------------|------------------------|---------------------|


-|------------------|--------------|--------------|-----3-3---|---------------|
-|------------------|--------------|--------------|-----3-5---|---------------|
-|-9-11-12--12-11-9-|-9-7------7-9-|----------4-5-|-4-2-4-5-4-|---------------|
-|------------------|-----9--9-----|---5-7--7-----|-----5-5-5-|---------------|
-|------------------|--------------|-7------------|-----5-3-5-|---------------|
-|------------------|--------------|--------------|-----3-3-3-|---------------|


-|-------10-|-------10-|-------10-|----------|------7-|------7-|------7-|-----|
-|-12-13-12-|-12-13-12-|-12-13-12-|-13-12-12-|-8-10-8-|-8-10-8-|-10-8-8-|-----|
-|-------12-|-------11-|-------12-|----------|------9-|------9-|------9-|-----|
-|-------12-|----------|-------12-|----------|------9-|------9-|------9-|-----|
-|-------10-|----------|-------10-|----------|------7-|--------|------7-|-----|
-|----------|----------|----------|----------|--------|------8-|--------|-----|


-|-------10-|-------10-|-------10-|----------|------7-|------7-|-5-3-3-|-2----|
-|-12-13-12-|-12-13-12-|-12-13-12-|-13-12-12-|-8-10-8-|-8-10-8-|-----0-|------|
-|-------12-|-------11-|-------12-|-------12-|------9-|------9-|-----0-|------|
-|-------12-|----------|-------12-|----------|------9-|------9-|-----0-|------|
-|-------10-|----------|-------10-|----------|------7-|--------|-------|------|
-|----------|----------|----------|----------|--------|------8-|-------|------|
Tap to rate this tab
# A B C D E F G H I J K L M N O P Q R S T U V W X Y Z