Guitaretab - guitar tabs
Song name
# A B C D E F G H I J K L M N O P Q R S T U V W X Y Z

Misc Computer Games - Wild Arms - Opening Theme tab

-|---------8----|---------8----|---------8-------------|-8----|---------------|
-|--------------|--------------|-----------------------|------|---------------|
-|--------------|--------------|-----------------------|-9----|---------------|
-|-0---7--------|-----7--------|-0---7-------0---------|------|---------------|
-|--------------|--------------|-----------------------|------|---------------|
-|--------------|-8------------|------------------8----|------|---------------|


-|--------------|--------0-----|--------1-----|--------0------|---------------|
-|--------3-----|------1---1---|------3---3---|------1---1----|---------------|
-|------3---3---|----0---------|----2---------|----0----------|---------------|
-|----3---------|--------------|-0------------|---------------|---------------|
-|-1------------|-3------------|--------------|-3-------------|---------------|
-|--------------|--------------|--------------|---------------|---------------|


-|--------------|--------0-----|--------1-----|-1----|------------------------|
-|--------3-----|------1---1---|------3---3---|-3----|------------------------|
-|------3---3---|----0---------|----2---------|-2----|------------------------|
-|----3---------|--------------|-0------------|-0----|------------------------|
-|-1------------|-3------------|--------------|------|------------------------|
-|--------------|--------------|--------------|------|------------------------|
                                                       start whistling..

-|-----1-----1---|-----0-----0---|-----1-----1----|---------------------------|
-|-----3-----3---|-----1-----1---|-----3-----3----|---------------------------|
-|-0-2-----------|---------------|-0-2------------|---------------------------|
-|--------0------|-0-2-----------|--------0-------|---------------------------|
-|---------------|--------3------|----------------|---------------------------|
-|---------------|---------------|----------------|---------------------------|
                                  this measure x2

-|-----1-----1---|-----3-----3---|-----5-----5----|---------------------------|
-|-----3-----3---|---------------|----------------|---------------------------|
-|-0-2-----------|-----4-----4---|-----6-----6----|---------------------------|
-|--------0------|-5------0------|----------------|---------------------------|
-|---------------|---------------|-0--------------|---------------------------|
-|---------------|---------------|--------0-------|---------------------------|
                                  this measure x2
[ Tab from: http://www.guitaretab.com/m/misc-computer-games/84316.html ]
-|-----1-----1---|-----0-----0---|----------------|-----0-----0---|-----------|
-|-----3-----3---|-----1-----1---|-----3-----3----|-----1-----1---|-----------|
-|-0-2-----------|---------------|-----3-----3----|---------------|-----------|
-|--------0------|-0-2-----------|----------------|--------2------|-----------|
-|---------------|--------3------|-1--------------|-0-------------|-----------|
-|---------------|---------------|--------1-------|---------------|-----------|
                  this measure x2                  this measure x2

-|---------------|---------------|-----1-----1---|-----1---|------------------|
-|----3-----3----|-3-------------|-----3-----3---|-----3---|------------------|
-|----3-----3----|-3-------------|-0-2-----------|-0-2-----|------------------|
-|---------------|---------------|--------0------|---------|------------------|
-|-1-------------|-1-------------|---------------|---------|------------------|
-|-------1-------|---------------|---------------|---------|------------------|
                                  this measure x3

-|---------------5-------------------|----------------------------------|-----|
-|-------5--6--------8----5----------|-------5--6----8--5---------------|-----|
-|----7----------------------5--7----|----7------------------5----------|-----|
-|-7---------------------------------|-7------------------------5--7----|-----|
-|-----------------------------------|----------------------------------|-----|
-|-----------------------------------|----------------------------------|-----|


-|-------------------------------------------|-----10--12--13--10-------12---|
-|-------------10-----13--12----10-----10----|-10-------------------10-------|
-|-----10--12-----------------------12-------|-------------------------------|
-|-10----------------------------------------|-------------------------------|
-|-------------------------------------------|-------------------------------|
-|-------------------------------------------|-------------------------------|


-|-10-----10-----------------|----------------------|-------------------------|
-|-----13-----10-------13----|----------------------|-------------------------|
-|-----------------10--------|-------------12-------|-------------------------|
-|---------------------------|-12-14-15--------12---|-------------------------|
-|---------------------------|----------------------|-------------------------|
-|---------------------------|----------------------|-------------------------|


-|-----1-----1---|-----1-----1---|-----1-----1---|-1----|---------------------|
-|-----3-----3---|-----3-----3---|-----3-----3---|-3----|---------------------|
-|-0-2-----------|-0-2-----------|-0-2-----------|-2----|---------------------|
-|--------0------|--------0------|--------0------|-0----|---------------------|
-|---------------|---------------|---------------|------|---------------------|
-|---------------|---------------|---------------|------|---------------------|
Related for Wild Arms - Opening Theme tab
Advertisement will be closed in 10 seconds