Song name
# A B C D E F G H I J K L M N O P Q R S T U V W X Y Z

Misc Computer Games - Final Fantasy 9 - The Beginning tab

|----------------------------------------------------|
|-------------0-1-0----------------------------------|
|--------0-3--------3-0--3---------------------------|
|-0--2-3-------------------3-2-0---------------------|
|--------------------------------3-------------------|
|----------------------------------------------------|

|----------------------------------------------------|
|-------------0-1-0----------------------------------|
|--------0-3--------3-3-2-3--------------------------|
|-0--2-3---------------------------------------------|
|----------------------------------------------------|
|----------------------------------------------------|

|----------------------------------------------------------------------|
|-------------0-1-0----------------------------------------------------|
|--------0-3--------3-0--3----------------0---------2---0--------------|
|-0--2-3-------------------3-2-0------3-3---3-2-0-----2---3-2-2-2-0----|
|--------------------------------3----------------4--------------------|
|----------------------------------------------------------------------|

|---------------------------------------------------------------|
|--3---3-1-0-------------0-1-1----3---3-1-0---------------------|
|----2-------2-0-2---0-2------------2-------2-0---2-------------|
|------------------3----------------------------3----1----------|
|------------------------------------------------------4-2-4----|
|---------------------------------------------------------------|

I know how to play it, but now I'm in a place where I have no guitar! ^_^'
so I'm making this by memory! sorry for any inconvinient! if there are some mistakes, 
let me know and I'll check it up again! ^_^
have fun!! \m/
Tap to rate this tab
# A B C D E F G H I J K L M N O P Q R S T U V W X Y Z