Song name
# A B C D E F G H I J K L M N O P Q R S T U V W X Y Z

Misc Computer Games - Legend Of Zelda 2 - Stone Tower tab

The Legend of Zelda: Majora's Mask

--Stone tower--

e|----------------------------------|
B|----------------------------------|
G|----------------------------------|
D|---2---2---2-3------2---2---2-1---|
A|-0---0---0--------0---0---0-------|
E|----------------------------------|
this is played through the whole Song except the muted parts

e|--------------------------------------------------|
B|--------------------------------------------------|
G|--------------------------------------------------|
D|---4-3----2---5-4-3-2--------4-3----2---4-3-------|X2
A|-3----------3---------2----3----------3-----3-4---|
E|--------------------------------------------------|

e|--------------------------------|
B|--------------------------------|
G|--------------------------------|
D|--------------------------------|X2
A|-x---x-x--x-0----x---x-x--x-0---|
E|--------------------------------|

e|----------------------------------|
B|----------------------------------|
G|----------------------------------|
D|----------------------------------|
A|-12---12---11----12---11--10--9---|
E|----------------------------------|

e|----------------------------------|
B|----------------------------------|
G|----------------------------------|
D|----------------------------------|
A|---12---12---11----12-11--11--9---|
E|----------------------------------|

e|------------------------------------------------------|
B|------------------------------------------------------|
G|------------------------------------------------------|
D|-------------------------------------8---8--7--6--5---|
A|-12---12---11----12---11--10--9----9---9--------------|
E|------------------------------------------------------|

e|---------------------------------|
B|-------16-14--12---------16-14---|
G|----14----------------14---------|
D|-12----------------12------------|X2
A|---------------------------------|
E|---------------------------------|

e|--------------------------------|
B|--------------------------------|
G|--------------------------------|
D|--------------------------------|
A|-x----x--x-0----x---x-x--x-0----|
E|--------------------------------|

e|--------------------------------|
B|--------------------------------|
G|--------------------------------|
D|--------------------------------|X2
A|-x---x-x--x-0----x---x-x--x-0---|
E|--------------------------------|

Then Repeat if you want

Listen to the song here- http://zs.ffshrine.org/majoras-mask/midis.php
i think you'll need it, i did when i forgot the beat of the beginning.

Some were asking for the whole song of this, so i tried making the rest and yea, its my 
tab, so sorry for any mistakes.
Tap to rate this tab
# A B C D E F G H I J K L M N O P Q R S T U V W X Y Z