Song name
# A B C D E F G H I J K L M N O P Q R S T U V W X Y Z

Misc Computer Games - Prince Of Persia - Raiders tab

Raiders
from the Warrior Within Soundtrack

|--------------------------------------------------------------------------|
For those of you who have played it, this is that really cool guitar 
theme that comes on about half way through the first level. Really easy song, the tuning is Drop-D
|--------------------------------------------------------------------------|

Tuning: Drop D

e|-------------------------------|
B|-------------------------------|
G|-------------------------------|
D|-------------------------------|
A|-2-3--2-3--2-3--0-1-1-1-1-0-0--|
D|-2-3--2-3--2-3--0-1-1-1-1-0-0--|

Play that 3 times and then play this...

e|----------------------------|
B|----------------------------|
G|----------------------------|
D|----------------------------|
A|-1-0--1-0--1-0-1-2-1-0-0-0--|
D|-1-0--1-0--1-0-1-2-1-0-0-0--|

Yup! That's it!
Tap to rate this tab
# A B C D E F G H I J K L M N O P Q R S T U V W X Y Z