Song name
# A B C D E F G H I J K L M N O P Q R S T U V W X Y Z

Misc Computer Games - Final Fantasy 1 - Dead Music tab

Help us improve GuitareTab! Take a short survey!
----------------------------------------------------------------------------
                     Final Fantasy I Dead Music- Nobuo Uematsu
---------------------------------------------------------------------------
Final Fantasy I Dead Music
Tabbed by: Skeez
Email: kadamczy@gmail.com

This is a little arrangement I made, not completely true to the original, but it sounds good.

Tuning: Standard EADGBE

     Q.     E  Q    E  E     E  E  E  E  H           Q.     E  Q    E  E   
e||--3--------------5--3--|--2--3--2--------------|--0-----------------0--|
B||---------0--1----------|--------------0--------|-----------------------|
G||-----------------------|-----------2-----------|---------0-------0-----|
D||--2--------------------|--0--------------------|------------4----------|
A||------------0----------|-----------------------|--3---------0----------|
E||-----------------------|--------------3--------|-----------------------|


     E  E  Q    E  E  E  E     Q.     E  Q    E  E     E  E  E  E  Q    E  E   
e||--0-----2----------0--2--|--3--------------5--3--|--2--3--2----------------|
B||-----4----------4--------|---------0--1----------|-----------1--0----1--3--|
G||-------------------------|-----------------------|-------------------------|
D||-------------------------|--2--------------------|--0----------------------|
A||--2----------2-----------|------------0----------|-------------------------|
E||-------------------------|-----------------------|--------------3----------|


     Q.     E  Q    Q       E  E  E  E  H                  
e||--0------2--0---------|--0---------------------||-----||
B||-----------------3----|------------------------||-----||
G||----------------------|-----------------------*||-----||
D||------------0---------|--2--0-----------------*||-----||
A||--3-------------------|--------0--2------------||-----||
E||----------------------|--------------0---------||-----||




Duration Legend
---------------
W - whole
H - half
Q - quarter
E - 8th
S - 16th
T - 32nd
X - 64th
. - note dotted
|-n-|  - n-tuplets
Related for Final Fantasy 1 - Dead Music tab