Song name
# A B C D E F G H I J K L M N O P Q R S T U V W X Y Z

Misc Computer Games - Final Fantasy 7 - Chasing The Black Caped Man tab

-------------------------------------------------------------------------------
	         Chasing The Black Caped Man - Final Fantasy 7
-------------------------------------------------------------------------------
Tabbed by:heyitsthemokid

Tuning:Standard


e|--8--8--8--8--0--0--0--0--2--2--2--2------------|
B|--------------------------------------1--1--1--1|
G|------------------------------------------------|
D|------------------------------------------------|
A|------------------------------------------------|
E|------------------------------------------------| x2

e|--0-------0--3--2-----0----------------|
B|----3-1-3---------------3-1-0-------0--|
G|------------------------------2-1-2---2|
D|---------------------------------------|
A|---------------------------------------|
E|---------------------------------------| x2

Repeat from beginning

e|--------------1-0----------------0--2--3--5--3--7--2--3|
B|----0-1-3-1-------4-----0--1--3------------------------|
G|--2---------2------------------------------------------|
D|-------------------------------------------------------|
A|-------------------------------------------------------|
E|-------------------------------------------------------|

e|--------------1-0-------------0---------------|
B|----0-1-3-1-------4-----0--3-------------1-0--|
G|--2---------2---------------------0-2-0------3|
D|------------------------------2-4-------2-----|
A|----------------------------------------------|
E|----------------------------------------------|

e|-----------------------------------------------------------------2|
B|--0---3-----1---------0----------------------0---3-----1----------|
G|----------------2-------------0---2------------------------2------|
D|--------------------------3---------------------------------------|
A|------------------------------------------------------------------|
E|------------------------------------------------------------------| x2
Tap to rate this tab
# A B C D E F G H I J K L M N O P Q R S T U V W X Y Z