Song name
# A B C D E F G H I J K L M N O P Q R S T U V W X Y Z

Misc Computer Games - Final Fantasy 7 - Great Warrior tab

Final Fantasy 7
---------------
Great Warrior

Tuning|Standard
Tabbed by|Dub
E-Mail|m_westrick09@hotmail.com

e|-0-0-0-2-0----0-0-0-3-2-0----------------------------------|
b|-----------3--------------3---------0--1--0-1-3------------|
g|-----------------------------2--0-2--------------0---------|
d|-----------------------------------------------------------|
a|-----------------------------------------------------------|
e|-----------------------------------------------------------|


e|-0-0-0-2-0----0-0-0-3-2-0-----------------------0--3-2---0-|
b|-----------3--------------3---------0--1--0-1-3--------3---|
g|-----------------------------2--0-2------------------------|
d|-----------------------------------------------------------|
a|-----------------------------------------------------------|
e|-----------------------------------------------------------|
Tap to rate this tab
# A B C D E F G H I J K L M N O P Q R S T U V W X Y Z